Bob Marley


                BOB MARLEY and THE WAILERS

                     WAITING IN VAIN

                     album:  EXODUS

         CHORUS
G ||-------------------------------------------------------|| 
D ||-------------------------------------3-----------------|| 
A ||---------------------(O)-3--3-5-3------5--O-3--O-------|| 
E ||-3----3-5-3--3-5-3-------------------------------3-----|| 


	VERSE
G ||-------------------------------------------------------|| 
D ||-------------------------------------------------------|| 
A ||---------------------(O)-3--3-5-3------5--3-3-3--O-----|| 
E ||-3----3-5-3--3-5-3----------------------------------3--||


      BRIDGE
G ||---------------------------|| 
D ||-------------6-------------||  X2
A ||-4---6-----7---7-----6-----|| 
E ||------------------------6--||