Bob Marley


----------------------------------------------------------------------------
		TURN YOUR LIGHTS DOWN LOW - Bob Marley
----------------------------------------------------------------------------


    C         D         C         D 

e|--3----3----5----5----3----3----5----5--|
B|--5----5----7----7----5----5----7----7--|
G|--5----5----7----7----5----5----7----7--|  Intro
D|--5----5----7----7----5----5----7----7--|
A|--3----3----5----5----3----3----5----5--|
E|----------------------------------------|





    G         D         Em        Em 

e|--3----3----5----5----7----7----7----7--|
B|--3----3----7----7----8----8----8----8--|
G|--4----4----7----7----9----9----9----9--|
D|--5----5----7----7----9----9----9----9--|
A|--5----5----5----5----7----7----7----7--|
E|--3----3--------------------------------|

                                             Verse
    C         Bm        Am        Am
     
e|--8----8----7----7----5----5----5----5--|
B|--8----8----7----7----5----5----5----5--|
G|--9----9----7----7----5----5----5----5--|
D|--10---10---9----9----7----7----7----7--|
A|--10---10---9----9----7----7----7----7--|
E|--8----8----7----7----5----5----5----5--|





    C         Bm        Am        Am

e|--3----3----2----2----5----5----5----5--|
B|--5----5----3----3----5----5----5----5--|
G|--5----5----4----4----5----5----5----5--|  Chorus
D|--5----5----4----4----7----7----7----7--|
A|--3----3----2----2----7----7----7----7--|
E|----------------------5----5----5----5--|





    Em        D         Em        D

e|--7----7----5----5----7----7----5----5--|
B|--8----8----7----7----8----8----7----7--|
G|--9----9----7----7----9----9----7----7--|  Bridge
D|--9----9----7----7----9----9----7----7--|
A|--7----7----5----5----7----7----5----5--|
E|----------------------------------------|