Bob Marley


                             TRENCHTOWN ROCK
                        Bob Marley and the Wailers

 Verse:
 |----------------------------------------------------------------|
 |------------------------------------5---------------------------|
 |-3-------5-5-5---8-7-5-3--3-3---------------5-5-5--8-7-5--3-3-3-|
 |---3--3-----------------------1-3-----3--3----------------------|

 |----------------------------------------------------------------|
 |------------------------------------5---------------------------|
 |-3-------5-5-5---8-7-5-3--3-3---------------5-5-5--8-7-5--3-3-3-|
 |---3--3-----------------------1-3-----3--3----------------------|

 Chorus:
 |--------------------------------------------------|
 |--------------------------------------------------|
 |---------3-------------------8-----7----3---------|
 |-------------3--------------------------------1-0-|

 |------------------------------------------|
 |------------------------------------------|
 |--------2---5-------------------5-5-----3-|
 |-3----------------------------------------|

 |-----------------------------------------------------|
 |-----------------------------------------------------|
 |---------3----------------------8-----7----3---------|
 |-------------3-----------------------------------1-0-|

 |--------------------------------------------|
 |--------------------------------------------|
 |--------2---5---------------------5-5-----3-|
 |-3------------------------------------------|

 |------------------------------------------------------|
 |------------------------------------------------------|
 |---------3----------------------8-----7----3----------|
 |-------------3---------------------------------3--1-0-|

 |---------------------------------------------------|
 |---------------------------------------------------|
 |--------2---5----------------------------5-5-----3-|
 |-3-------------------------------------------------|

 |-------------------------------------------------------|
 |-------------------------------------------------------|
 |---------3------------------------8-----7----3---------|
 |-------------3-------------------------------------1-0-|

 |--------------------------------------------------|
 |--------------------------------------------------|
 |--------2---5---------------------------5-5-----3-|
 |-3------------------------------------------------|


 Bridge: This is just the basic pattern
         there is improv up the ass on this.

 |----------------------------------------|
 |----------------------------------------|
 |----------------------------------------|
 |-5-5--0--5-5--5-5-5--5-5--0--5-5--5-5-5-|
  
 |----------------------------------------|
 |----------------------------------------|
 |-5-5--0--5-5--5-5-5--5-5--0--5-5--5-5-5-|
 |----------------------------------------|