Bob Marley


----------------------------------------------------------------------------
			     Sun is Shining - Bob Marley
----------------------------------------------------------------------------
   

    F#    F#    B     B     F#    F#    B     B

e|--6-----6-----7-----7-----2-----2-----2-----2-----|
B|--7-----7-----7-----7-----2-----2-----4-----4-----|
G|--6-----6-----8-----8-----3-----3-----4-----4-----|  INTRO
D|--8-----8-----9-----9-----4-----4-----4-----4-----|
A|-------------------------(4)---(4)---(2)---(2)----|
E|-------------------------(2)---(2)----------------|


    F#                      F# 

e|--6-----9-----8-----7-----6-----9-----8-----7-----|
B|--7-----7-----7-----7-----7-----7-----7-----7-----|
G|--6-----6-----6-----6-----6-----6-----6-----6-----|   X2
D|--8-----8-----8-----8-----8-----8-----8-----8-----|
A|--------------------------------------------------|
E|--------------------------------------------------|


    B                       B

e|--11----14----13----12----11----14----13----12----|
B|--12----12----12----12----12----12----12----12----|
G|--11----11----11----11----11----11----11----11----|   X2
D|--13----13----13----13----13----13----13----13----|
A|--------------------------------------------------|
E|--------------------------------------------------|