Bob Marley


                          STOP THAT TRAIN
                     Bob Marley an the Wailers
                        Album: Catch a fire

Intro X 2
|---------------------------------|---------------------------------|
|---------------------------------|---------------------------------|
|---------------------------------|----------------3---5------------|
|-3-----------3-3-3-3-------------|-3-3-3-3----------------3--------|
 
Chorus
|---------------------------------|---------------------------------|
|---------------------------------|---------2-3-5-------------------|
|---------2-3-5-------------------|-3---------------3-------3-2-0---|
|-3---------------3-------3-3-----|---------------------------------|
 

|---------------------------------|---------------------------------|
|---------------------------------|---------5-4-2-------------------|
|---------2-3-5-------------------|-5-----------------------5-3-2---|
|-3---------------3-------3-3-----|---------------------------------|
 

|---------------------------------|---------------------------------|
|---------------------------------|-----------------5-3-2-----------|
|---------2-3-5-------------------|-3-----------------------3-------|
|-3---------------3-------3-3-----|---------------------------------|
 

|---------------------------------|---------------------------------|
|---------------------------------|---------7-7---------------------|
|---------2-3-5-------------------|-5-----------------------3-2-0---|
|-3---------------3-------3-3-----|---------------------------------|
 

|---------------------------------|---------------------------------|
|---------------------------------|---------2-3-5-------------------|
|---------2-3-5-------------------|-3---------------3-------3-3-3-3-|
|-3---------------3-------3-3-----|---------------------------------|
 

|---------3-3-3------------3------|
|-1---------------1--1-1-1---1----|
|---------------------------------|
|---------------------------------|
 
Verse
|---------------------------------|---------------------------------|
|---------------------------------|---------------------------------|
|---------------------------------|----------------3---5------------|
|-3-----------3-3-3-3-------------|-3-3-3-3----------------3--------|
 

|---------------------------------|---------------------------------|
|---------------------------------|-----------------------------8-7-|
|---------------------------------|----------------3---5------------|
|-3-----------3-3-3-3-------------|-3-3-3-3----------------3--------|
 

|---------------------------------|---------------------------------|
|-5---------8-7-5-----------------|---------------------------------|
|-----------------------------8-7-|-5-----------8-7-5---------5-----|
|---------------------------------|-----------------------------8-7-|
 

|---------------------------------|---------------------------------|
|-5---------------5---------------|-----------------------------8-7-|
|-------------------------------5-|-------------2-2-3-4-------------|
|---------------8-------------8---|-3-------3-----------------------|
 

|---------------------------------|---------------------------------|
|-5---------8-7-5-----------------|---------------------------------|
|-----------------------------8-7-|-5-----------8-7-5---------5-----|
|---------------------------------|-----------------------------8-7-|
 

|---------------------------------|---------------------------------|
|-5---------------5---------------|---------------------------------|
|-------------------------------5-|-------------2-2-3-4-5-----------|
|---------------8-------------8---|-3-------3-----------------------|