Bob Marley


                          STIR IT UP
                  by Bob Marley and the Wailers

    2 X                        Repeat 5 times
G|-------|---|----|---|----|:----------|---------------4:|
D|-Intro-|---|----|---|----|:----------|-----4-7-----6--:|
A|-------|---|-r--|-r-|--r-|:---4-4-5-4|-4-5-----5-7----:|
E|-------|-5-|----|---|----|:-5--------|----------------:|
    
    Repeat 4 times            Repeat 4 times
G|:----------|----------:||:----------|---------------4:|
D|:----------|-------4--:||:----------|-----4-7-----6--:|
A|:-------4--|-5-7-7---5:||:---4-4-5-4|-4-5-----5-7----:|
E|:-5-7-7---5|----------:||:-5--------|----------------:|
   
   Repeat 4 times            Repeat 4 times
G|:----------|----------:||:----------|---------------4:|
D|:----------|-------4--:||:----------|-----4-7-----6--:|
A|:-------4--|-5-7-7---5:||:---4-4-5-4|-4-5-----5-7----:|
E|:-5-7-7---5|----------:||:-5--------|----------------:|
   
   Repeat 4 times            Repeat 5 times
G|:----------|----------:||:----------|---------------4:|
D|:----------|-------4--:||:----------|-----4-7-----6--:|
A|:-------4--|-5-7-7---5:||:---4-4-5-4|-4-5-----5-7----:|
E|:-5-7-7---5|----------:||:-5--------|----------------:|
   
   Repeat 4 times            Repeat 4 times
G|:----------|----------:||:----------|---------------4:|
D|:----------|-------4--:||:----------|-----4-7-----6--:|
A|:-------4--|-5-7-7---5:||:---4-4-5-4|-4-5-----5-7----:|
E|:-5-7-7---5|----------:||:-5--------|----------------:|
   
   Repeat 4 times            Repeat 6 times (fading)
G|:----------|----------:||:----------|---------------4:|
D|:----------|-------4--:||:----------|-----4-7-----6--:|
A|:-------4--|-5-7-7---5:||:---4-4-5-4|-4-5-----5-7----:|
E|:-5-7-7---5|----------:||:-5--------|----------------:|

        Performed by Aston "Family Man" Barrett