Bob Marley


                           BOB MARLEY and THE WAILERS

                               STIFF NECKED FOOLS

                             album:  CONFRONTATION


       INTRO
G ||----------------------|| 
D ||----------------------|| 
A ||-33333---33333--3-----|| 
E ||----------------------|| 



G ||------5----------------------------|| 
D ||----------5--------55-OO-22-3------|| 
A ||-3------O--------------------------||   X3
E ||-----------------------------------|| 

G ||-------------------------|| 
D ||--------------3---3---2--|| 
A ||----------------3--------|| 
E ||-5---555-----------------||