Bob Marley


                  BOB MARLEY and THE WAILERS
                
                           RAT RACE

                  album:  RASTAMAN VIBRATION


           INTRO   X2
G ||-5-3---------------------------|| 
D ||-----5-1-----------------------|| 
A ||----------------1--333----1-3--|| 
E ||--------------3----------------|| 

       only play the note in brackets the very first time
G ||----------------------|-------------------------------------------------||
D ||----------------------|---------5-5---------5-----------5-5---------5---|| 
A ||----------------------|-------------------------------------------------|| 
E ||-(8)-66--66--66--66---|---66--6--------666--------66--6--------666------||

 
  sometimes you play this instead of the second bar:
G ||---------------------------------------------|| 
D ||----------------5----------5-5--------5------||
A ||-6--5----------------------------------------|| 
E ||-------8-------------66--6--------666--------||