Bob Marley


                  BOB MARLEY and THE WAILERS

                       RASTAMAN LIVE UP

                    album:  CONFRONTATION


      CHORUS
G ||-------------------------------------------------------------||
D ||-------------------------------------------------------------||
A ||-----3---3---------3-3-3-----------3---3---------3-3-3-------||
E ||---3--------3---3---------3------3--------3---3---------3----||

G ||-------------------------------------------------------------||
D ||-----3---3---------3-3-3------------5--5---------5-5-5-------||
A ||---3--------3---3---------3------5--------5---5---------5----||
E ||-------------------------------------------------------------||


        VERSE
G ||-----------------------------------------------|| 
D ||-----------------------------------------------|| 
A ||-3-----------3----------3---------3------------|| 
E ||----33-33------33-33------33-33-----33-33------|| 
     
G ||-------------------------------------------------------------||
D ||-----3---3---------3-3-3------------5--5---------5-5-5-------||
A ||---3--------3---3---------3------5--------5---5---------5----||
E ||-------------------------------------------------------------||