Bob Marley


              BOB MARLEY and THE WAILERS

                      PUT IN ON
 
                 album:     BURNIN'


       INTRO
G ||----------------------------|| 
D ||----------------------------||  
A ||--------5-5-----4-4---------||        X2
E ||-5-5--------------------7---||      
 

G ||-----------------------------------------------|| 
D ||-------------------------------O-O-7-7---O-----|| 
A ||---------5-5----5-7-7-----77-----------7-------|| 
E ||-5-5----5--------------------------------------|| 

       MAIN RIFF
G ||-----------------------------------------------|| 
D ||-77----------------------------O-O-7-7---O-----|| 
A ||----7------5-5---55-7-7-----77---------7-------|| 
E ||------5----------------------------------------||