Bob Marley


              NO WOMAN NO CRY
                Bob Marley

------|--------1------------------------------
------|--1-----0----1-------------------------
------|--0-----0----2-------------------------
------|--2-----0----2-0h2h3-3-2-0h2p0---------
---0-2|3---0---2-00-------------------3-------
-3----|------3--------------------------------
 above is the main riff of the song, save the first three "intro" notes       

----------------------------------------------
----------------------------------------------
----------------------------------------------
-2-3-2-0--------------------------------------
---------3-----0-2----------------------------
-----------3-3--------------------------------
 top riff is the first chorus line, the second riff is the 2nd chorus line