Bob Marley


                       BOB MARLEY and THE WAILERS

                             NO WOMAN NO CRY

                          album:  NATTY DREAD   
                                   
G ||------------------------------|-----------------||
D ||------------------------------|-----------------||
A ||---O-2--------3---2---O-------|-3------3-2-O----||
E ||-3-----3------------------1---|-------------3---||

        VERSE
G ||-----------------------------||
D ||-----------------------------||
A ||--3---33--2--22---O----------||
E ||---------------------O-1-----||

       "Every things gonna be alright.."
G ||---------------------------------------||
D ||-5-5-----------------------------------||
A ||-----O33----33-22----22-OO-------------||
E ||-----------------------------O-1-------||