Bob Marley


          BOB MARLEY and THE WAILERS
                
              NO MORE TROUBLE 

            album: CATCH A FIRE

    intro
G ||--------------------------|| 
D ||--------------------------|| 
A ||--3-4-5---5-6-7-----------|| 
E ||------------------3-4-5---|| 

      VERSE
G ||--------------5-----------------------------5--------------|| 
D ||---------5--7----------55-7------------5--7----------5--7--|| 
A ||-----5-7-----------5-7-------------5-7---------5--77-------|| 
E ||-5--------------5-----------5--5---------------------------|| 

     CHORUS
G ||------------5---------------------------5----------------------|| 
D ||----------7---7-----------------------7------------------------|| 
A ||--55555-----------55555--7-5---55555--------7-7-7-7-7-7-7-7-7--|| 
E ||---------------------------------------------------------------||