Bob Marley


                          NATURAL MYSTIC
                            Bob Marley
    Am

e|--0----0----0----0----|
B|--1----1----1----1----|
G|--2----2----2----2----|  Intro
D|--2----2----2----2----|
A|--0----0----0----0----|
E|----------------------|


   Dm         G         Am

e|--1----1----3----3----0----0----0----0----|
B|--3----3----3----3----1----1----1----1----|
G|--2----2----4----4----2----2----2----2----|  Section 1
D|-(3)--(3)---5----5----2----2----2----2----|
A|-----------(5)--(5)---0----0----0----0----|
E|-----------(3)--(3)-----------------------|


   Dm         Am        Dm        Am

e|--1----1----0----0----1----1----0----0----|
B|--3----3----1----1----3----3----1----1----|
G|--2----2----2----2----2----2----2----2----|  Section 2
D|-(3)--(3)---2----2---(3)--(3)---2----2----|
A|------------0----0--------------0----0----|
E|------------------------------------------|

                                             
                                                
   Dm         Am        Dm   G    Am

e|--1----1----0----0----1----3----0----0----|
B|--3----3----1----1----3----3----1----1----|
G|--2----2----2----2----2----4----2----2----| 
D|-(3)--(3)---2----2---(3)---5----2----2----|
A|------------0----0--------(5)---0----0----|
E|--------------------------(3)-------------|



    Am   

e|--0----0----0----0----|
B|--1----1----1----1----|
G|--2----2----2----2----|  Bridge
D|--2----2----2----2----|
A|--0----0----0----0----|
E|----------------------|