Bob Marley


                         JAMMIN
               Bob Marley and the Wailers
                      Album: Legend

Main Verse
G|-------------------------------0-0-0---0----------------------|
D|------------------2---2-2-2----------0---4---4-4---4-4-4------|
A|-2-2-2-2-2-2-2------2----------------------------4------------|
E|--------------------------------------------------------------|

Chorus Part
G|------------------------------0-0-0---0-----------------|
D|-------0-2-2---4-------0-2-2--------0----4---4-4---4-4-4|
A|-2-2---------------2-2---------------------------4------|
E|--------------------------------------------------------|