Bob Marley


                     BOB MARLEY and THE WAILERS

                       IS THIS LOVE bass tab
                       
                           album:  KAYA
   

G ||-------2----------------------2-6-----7-6-----7-6---|| 
D ||---2-4-------4----2-4-----O-4-----4-------7-------7-|| 
A ||-4-------------4------------------------------------|| 
E ||----------------------------------------------------|| 

G ||-------2----------------------2---------------------|| 
D ||---2-4-------4----2-4-----O-4-----------------------|| 
A ||-4-------------4------------------O-O-O---O---------|| 
E ||----------------------------------------4---4-2-----||  

G ||----------------------------------|| 
D ||----------------------------------|| 
A ||-5-5-5---5---O------O-O---O-------|| 
E ||-----------2------------4---4-2---|| 


G ||-------2----------------2------2-2-2-1-2-1------|| 
D ||---2-4-----O--O-O--O-4--------------------------|| 
A ||-4----------------------------------------------|| 
E ||--------------------------------------------2---|| 

G ||-------2----------------------------------------------|| 
D ||---2-4------4---2-4-----------------------------------|| 
A ||-4------------4-------5-5-5---5---O-----O-O-O---O-----|| 
E ||--------------------------------2-------------4---4-2-|| 

THAT'S ALL THE RIFFS IN THE SONG.
IT'S QUITE COMPLICATED BUT STICK WITH IT.