Bob Marley


                      I SHOT THE SHERIFF
                   Bob Marley and The Wailers
                         album Burnin

Part A (repeat 2 times)

G ------------------3---5----------------------------
D -----0--/5------5-----------3---3--5--------3-3-3-5
A -1------------------------5---5----------5---------
E -----------3---------------------------------------


Part B (repeat 4 times)

G -8-------7-------------------------------7-
D ---8-------7------------5------------------
A -----6-------5------5-8---5-5-5-5-5-5-5----
E -------------------------------------------

Part C1 (fill after 4th Part B)

G ------------7-------5-7-8-7-5-D-------------------
D ------------------5--------------5---------------5
A 5-5-5-5-5---------------------------5-5-5-5-5-5---
E --------------------------------------------------

G --------------------------------------------------
D --5--3--------------------------------------------
A -------5-3-1-5-3-1--------------------------------
E --------------------3-----------------------------

Sometimes the first part of C is played like:

G ------------7-----5-7-8-7-5-D----------------------
D ---------------5----------------5-5---5----5---5---
A -5-5-5-5-5--------------------------5----5---5-----
E ---------------------------------------------------