Bob Marley


               Get Up Stand Up - bass tab

                Bob Marley & The Wailers
                      album Burnin

1st Riff (play 2x)

G-------0--------------------0----------0----------------0--------------
D---------1----0-1-0-------0--------------1--0-1-0------0----3/5--------
A-3------------------3------------1-3-------------3-33-----------------1
E------------------------------3----------------------------------------


2nd Riff (play 2x)

G--------8---------------------------
D------5-------------5---------------
A--6-8-----------6-8-----------------
E--------------8--------6-8--------8-

That's about it. Just play the 1st riff twice, then the 2nd riff twice over 
and over until the end where you just repeat the 1st riff until it fades. 
Pretty easy and fun to play once you memorize it.