Bob Marley

             
       Song Name : "Easy Skanking"
Words and Music by the "king" Bob Marley....

**Bass Line to use with the Intro, Verse and Chorus...

  Bb
e|-----------------------------------------|
B|-----------------------------------------|
G|-----------------------------------------|
D|----------0--0--3------------0--0--3--3--|
A|-1--1--1------------1--1--1--------------|
E|-----------------------------------------|
  Gm
e|-----------------------------------------|
B|-----------------------------------------|
G|-----------------------------------------|
D|----------------0------------------0--0--|
A|----------1--1---------------1--1--------|
E|-3--3--3------------3--3--3--------------|

**Bass Line to use with the Bridge...

   Eb                   Dm
e|------------------------------------------|
B|------------------------------------------|
G|----------3--3--3-------------------------|
D|-1--1--1-----------1--0-----0-----0-----1-|
A|-------------------------0-----0-----0----|
E|------------------------------------------|


Very hard isn't it?! Very nice to play though....