Bob Marley


                
                     COULD YOU BE LOVED
                         Bob Marley 

This tab is completely perfect and its not as hard as it looks, it's prety
repetative. Good song



Intro x2
G:---------------------------------------------------------------
D:---------4-----------------------------------------------------
A:--2---5----54--------------------------------------------------
E:---------------------------------------------------------------

Riff1 x2
G:---------------------------------------------------------------
D:---------------------------------------------------------------
A:-55--5555-----22--2222--------------55--202-5------------------
E:--------------------------33--3333-----------------------------

Riff2 x2
G:---------------------------------------------------------------
D:------2-4---------2-4-----22-22---22--22-----------------------
A:--2-5-----2---2-5-----2-------------------------------------------
E:---------------------------------------------------------------

Riff3 x1
G:------------------------------77------66---------------------------
D:------2-4---------2-4-----55------44-------22-2--2--------2-4--------
A:--2-5-----2---2-5-----2-------------------------2-----2-5-----2---
E:---------------------------------------------------------------

G:------------------77------66----22-----------------------------------
D:------2-4-----55------44-----------22----------------------------------
A:--2-5-----2----------------------------00---------------------------
E:---------------------------------------------------------------

Riff1 x2


Riff4 x6
G:---------------------------------------------------------------
D:-----------444---------4-------------------------------------------
A:--0-2-0-22-----0-2-0-2---2-----------------------------------------------
E:---------------------------------------------------------------

Riff3 x1

Riff1 x2

Riff6 play about10 times until song fades out