Bob Marley


                         BOB MARLEY and THE WAILERS

                              BUFFALO SOLDIER

                          album:  CONFRONTATION


 INTRO : Keep hitting 5 on E

        CHORUS
G ||--------------------------------------------------|| 
D ||-------------------44-2-----------4----4----------|| 
A ||------------------------4-O-----------------------|| 
E ||-555--55--555--55---------------O-------55--------||

       VERSE
G ||------------------------------------------------------|| 
D ||------------------------------------------------------|| 
A ||-5-55---O-4--O------5-55---O-4--O------4-44-4444------|| 
E ||---------------5------------------5--------------2-22-|| 

BRIDGE
                "woe yoe yoe..."
G ||------------------------------------------------------|| 
D ||-------------------44-2-------------------------------|| 
A ||------------------------4-O-----O-4--5----------------|| 
E ||-555--55--555--55----------------------5--------------|| 

      "Buffalo soldier,trodding through the land.."
G ||----------------------------------------------|| 
D ||----------------------------------------------|| 
A ||----------------------55-5--554----4----------||  X2
E ||-555--55--555--555----------------------------||