Bob Marley


             BOB MARLEY and THE WAILERS

              AFRICA UNITE - bass tab
 
             album:   SURVIVAL

                 RIFF 1

G ||---------------------------------------------------------||
D ||---------------------------------------------------------||
A ||------------5-5-5-----7-7-7----7-5-----------------------||
E ||--3-3-3--------------------------------------------------||

                 "cause we're movin' ......."
G ||---------------------------------------------------------||
D ||---------------------------------------------------------||
A ||---3-3-3----5-5-5-----7-7-7------------------------------||     X2
E ||---------------------------------------------------------||


                 RIFF 2

G ||----------------------------------------------------------||
D ||--------------------------------------O--7----------------||
A ||-----------2-3-----5-5-5----7-5------------7--5-----------||
E ||--3------3----------------------7----------------7--------||